Ronnie James Dio Simon Wright Scott Warren Craig Goldy Rudy Sarzo 
    Menu Ronnie Dio



From "Ritchie Blackmores Rainbow" Rainbow (1975)

Words: Ronnie James Dio
Music: Dio/Blackmore
This song is for two Guitars (Elec/Acoustic) - both parts are transcribed separately
------------------------------------------------------------------------------

Guitar 1: Acoustic Guitar

 
E||------------------------|--------0----------0---------|
B||------------------------|--------0--------0---0-------|
G||------------------------|--------0------4-------4p2-0-|
D||----------0-2-----0-----|--------0--------------------|
A||--------------0-2-------|-----2-----------------------|
E||---------------------3/-|--0--------------------------|


 
-----------3h----------------|-------5--------------------|
-----------3-5p3----0h1p0----|-------5--------------------|
--0--------------5--------0--|-------5--------5-7-5-7-5-7-|
-----------------------------|--7-------------5-7-5-7-5-7-|
-----------------------------|------------5h7-------------|
-----------------------------|----------------------------|


 
--------7----------0-------|--------------------------|
--------8--------0---0---0-|--------------------------|
--------7------4-------4---|----------------5-7-5-----|
--------9------------------|-------------5--5h7-5-----|
--------7------------------|--3------5-7-----------7--|
--0--7---------------------|--------------------------|


 
--5--8--10--8--10-8-5--5----|---------------------5-7-5-7-|--------------------|
--5--8--10--8--10-8-5--5----|---------------------5-7-5-7-|--8-----------------|
----------------------------|----7-9-7-9-7-9-7------------|--9-----------------|
----------------------------|----7-9-7-9-7-9--------------|--10----------------|
----------------------------|-----------------------------|--------------------|
----------------------------|-----------------------------|--------------------|


 
-------------------|----------3-----------------|-------------------|
----------3--------|----------3h5p3----0h1p0----|-------------------|
----------0--------|----------------5--------0--|-------------------|
----------2--------|----------------------------|----------2--------|
----------2--------|----------------------------|-------------------|
----------0--------|----------------------------|-------------------|


 
-----------------------|--------------------|------------------|
-----------------------|--5--------7--------|------------------|
------7-9-7-9-7--------|--5--------7--------|------------------|
------7-9-7-9-7--------|--5--------7--------|------------------|
-----------------------|--------------------|------------------|
-----------------------|--------------------|------------------|


 
----------3--------------|-------------------|-----------------------|
----------3h5p3----0-----|-------------------|-----------------------|
----------------5-----0--|--2----------------|----------7-9-7-9-7----|
-------------------------|-------------------|----------7-9-7-9-7----|
-------------------------|-------------------|-----------------------|
-------------------------|-------------------|-----------------------|


 
------------12--------|------------------|------------------|------------------|
------------12--------|------------------|------------------|------------------|
--7-9-------12--------|------------------|------------------|------------------|
--7-9-----------------|------------------|------------------|------------------|
----------------------|------------------|------------------|------------------|
----------------------|------------------|------------------|------------------|


 
------------------0------|----------------------|------------------|
------8-7-8-7-8-7--------|------5--8--10--------|------------------|
-------------------------|----------------------|------------------|
-------------------------|----------------------|------------------|
-------------------------|----------------------|------------------|
-------------------------|----------------------|------------------|


 
------------------|------------------|------------------|------------------|
------------------|------------------|------------------|------------------|
------------------|------------------|------------------|------------------|
------------------|------------------|------------------|------------------|
------------------|------------------|------------------|------------------|
------------------|------------------|------------------|------------------|


 
------------------|------------------|------------------|------------------|
------------------|------------------|------------------|------------------|
------------------|------------------|------------------|------------------|
------------------|------------------|------------------|------------------|
------------------|------------------|------------------|------------------|
------------------|------------------|------------------|------------------|


 
------------------3--|----------------------|----------------------|
---------------3-----|--5----------3--------|----------------------|
------------4--------|----------------4-2---|--4----------4--2--0--|
---------------------|----------------------|----------------------|
---------------------|----------------------|----------------------|
---------------------|----------------------|----------------------|


 
-------------------------|---------------------3--|-----------------------|
-------------------------|------------------3-----|--5----------3---------|
--2----------4-2-4-2-4-2-|--4-2-0-----------------|----------------4-2-0--|
-------------------------|---------2/-------------|-----------------------|
-------------------------|------------------------|-----------------------|
-------------------------|------------------------|-----------------------|


 
----------------------|-------5------7--5--3--|---------------------|
----------------------|-----------------------|--5------------5--7--|
--4----------4--2--0--|--2/-------------------|---------------------|
----------------------|-----------------------|---------------------|
----------------------|-----------------------|---------------------|
----------------------|-----------------------|---------------------|


 
-------------5--7--10--|--12~---------14--15--17--|--12----7~-----------10--|
--8~-------------------|--------------------------|-----------------10------|
-----------------------|--------------------------|-------------------------|
-----------------------|--------------------------|-------------------------|
-----------------------|--------------------------|-------------------------|
-----------------------|--------------------------|-------------------------|


 
--12~-----------------|------------------|------------------|------------------|
------------12~-------|------------------|------------------|------------------|
----------------------|------------------|------------------|------------------|
----------------------|------------------|------------------|------------------|
----------------------|------------------|------------------|------------------|
----------------------|------------------|------------------|------------------|


 
------------------0------|----------------------|------------------|
------8-7-8-7-8-7--------|------5--8--10--------|------------------|
-------------------------|----------------------|------------------|
-------------------------|----------------------|------------------|
-------------------------|----------------------|------------------|
-------------------------|----------------------|------------------|


 
------------------|------------------|------------------|------------------|
------------------|------------------|------------------|------------------|
------------------|------------------|------------------|------------------|
------------------|------------------|------------------|------------------|
------------------|------------------|------------------|------------------|
------------------|------------------|------------------|------------------|


 
------------------|------------------|------------------|------------------|
------------------|------------------|------------------|------------------|
------------------|------------------|------------------|------------------|
------------------|------------------|------------------|------------------|
------------------|------------------|------------------|------------------|
------------------|------------------|------------------|------------------|


 
------------------|------------------|------------------------|
------------------|------------------|--5--------5--7--8--10--|
------------------|------------------|------------------------|
------------------|------------------|------------------------|
------------------|------------------|------------------------|
------------------|------------------|------------------------|


 
----------------------|------------------|------------------|
--12----10~-----------|------------------|------------------|
----------------------|------------------|------------------|
----------------------|------------------|------------------|
----------------------|------------------|------------------|
----------------------|------------------|------------------|


 
------------------------|---------------------|------------------|
--5--------5--7--8--10--|--12----5~-----------|------------------|
------------------------|---------------------|------------------|
------------------------|---------------------|------------------|
------------------------|---------------------|------------------|
------------------------|---------------------|------------------|



 Friends Ronnie Dio
 

Посвящается памяти легендарного Ronnie James Dio! 2008 © 2016