Ronnie James Dio Simon Wright Scott Warren Craig Goldy Rudy Sarzo 
    Menu Ronnie Dio



Author/Artist: Rainbow
Title: Tarot Woman
Album: Rising
Transcribed by: David LennstrEmail: carldavve@hotmail.com




------------------------------------------------------------------------------
------------------------------------------------------------------------------
------------------------------------------------------------------------------
------------------------------------------------------------------------------
------------------------------------------------------------------------------
------------------------------------------------------------------------------
  intro: keyboards, guitar enters with the D5 chord                          

-------------------------------------------|----------------------------------
-------------------------------------------|----------------------------------
-------------------------------------------|----------------------------------
---7--7-7-7---5---7--7------------10--5----|----------------------------------
---5--5-5-5-7---7-5--5-5-5-5--5-5-8---3----|----------------------------------
-------------------------------------------|----------------------------------
  main riff:                                                                 

----------|-------------------------------------------------------------------
----------|-------------------------------------------------------------------
----------|-------------------------------------------------------------------
--3--3----|-------------------------------------------------------------------
----------|---5---------------------------------------------------------------
--1--1--2-|---3-3-3-3--3-3-3--3-3-3--3-3-3--3---------------------------------
            I don't wanna go something tells me no...                        

------------------------------------------------------------------------------
------------------------------------------------------------------------------
------------------------------------------------------------------------------
---5-----------------5---------3-----3--5------------3------------------------
---3----------6------3---------1--5--1--3------6-----1------------------------
--------------4-------------------3------------4------------------------------
beware of a place...                                    tarot woman..       

------------------------------------------------------------------------------
------------------------------------------------------------------------------
----------------------------------------------------------13-12-10-8-10v-12v--
---13-13-12-10-10--13-13-12-10------------10--13-13-12-10---------------------
-------------------------------13--10--13-------------------------------------
------------------------------------------------------------------------------
solo stuff:                                                                 

----------------------|---------------------|---------------------------------
----------------------|---------6b8-6-4-3v--|---------------------------------
-13v-15-17b17-17b19---|---7-5-3-------------|---------------------------------
----------------------|---------------------|---------------------------------
----------------------|---------------------|---------------------------------
----------------------|---------------------|---------------------------------
               etc..     lick:                                               

------------------------------------------------------------------------------
------------------------------------------------------------------------------
------------------------------------------------------------------------------
------------------------------------------------------------------------------
------------------------------------------------------------------------------
------------------------------------------------------------------------------
3rd verse goes as same fig as 1st and 2nd, but in Em key, so one key up in  

------------------------------------------------------------------------------
------------------------------------------------------------------------------
------------------------------------------------------------------------------
------------------------------------------------------------------------------
------------------------------------------------------------------------------
------------------------------------------------------------------------------
the rest of the song.         

lyics: 

I don't wanna go
Something tells me no, no, no, no
But traces in the sand
The lines inside my hand
Say go, go, go

Beware of a place
A smile of a pride shiny face

I'll never return up to your love
Tarot woman
I don't know
I don't know

She can take you there
The answer's to the fear
Mine, mine, mine

Like a carousel
And cast a magic spell
You can fly, fly

Beware of a place
A smile of a pride shining face

I'll never return up to your love
Tarot woman but I don't know
I don't know
I don't know
I don't know

Something in the air
Tells me to beware, no, no, no
Her love is like a knife
Should cut away your life
So go, go, go

Beware of a place
A smile of a pride shining face

I'll never return up to your love
Tarot woman, I don't know
I don't know
I don't know
Hey, I don't know


 Friends Ronnie Dio
 

Посвящается памяти легендарного Ronnie James Dio! 2008 © 2016