Ronnie James Dio Simon Wright Scott Warren Craig Goldy Rudy Sarzo 
    Menu Ronnie Dio



Lonely Is The Word

Black Sabbath - Heaven And Hell (1980)

 

 

|---------------------------------------------------------------

|---------------------------------------------------------------

|-2---2-2------2-2----2-2-2-5---2---2-2-------2-2-------2-2-2---

|-2---2-2------2-2----2-2-2-5---2---2-2-------2-2-------2-2-2---

|---0-----(0)0-----(0)------------0-----(0)-0-----(0)-0-------3-

|---------------------------------------------------------------

 

"oh....lonely is the word..."

|--1-----------0------------------3------------1---1\------0----------

|--1-----------0------------------0------------1---1\------0----------

|--2-----------1----------2-------0------------2---2\------1------2---

|--3------2----2----------2--2-2--0------------3---3\--2---2------2---

|---------2---------------0--0-0-----------------------2----------0---

|---------0--0--------(0)---------3--0-3-0-3-5---------0-0-----0------

 

solo:

|-------------------------------12---10---8---7------------

|-10/13---10------10--13--15----------------------10---8---

|---------12^-----------------9----7----5---4--------------

|--7/11---------7-----11--12--------------------7----5-----

|----------------------------------------------------------

|----------------------------------------------------------

 

|----------------------------------------10----------------

|------10-10-10-----10-10-10------10--12----12-13-8/10-----

|-----------------------------------------7----------------

|-5/7--7--7--7--5/7--7--7--7--5/7--7---9-----9-10-5/7------

|----------------------------------------------------------

|----------------------------------------------------------

 

|---------10-12--8-10--------------------------------------

|---10-12-------------12-13-12-10--8-10-13-10-8/10-10------

|----------7--9--5--7--------------------------------------

|-7-----9--------------9-10--9--7--5--7-10--7-5/7---7------

|----------------------------------------------------------

|----------------------------------------------------------

 

|-----8---10---12----17----17-------10-----12---7---8------

|10--------------------------------------------------------

|---5---7----9----14----14----14--7----7/9----4---5--------

|-7--------------------------------------------------------

|----------------------------------------------------------

|----------------------------------------------------------

 

|-----------8----------------------------------------------

|10----8-10---10-------------------------------------------

|-----------5---------7^-7-5-------------------------------

|-7----5--7----7------7^-7-5-5-----------------------------

|----------------------------5-----------------------------

|----------------------------------------------------------

 

***the solo is based in A.Im not going to tab that one***


 Friends Ronnie Dio
 

Посвящается памяти легендарного Ronnie James Dio! 2008 © 2016