Ronnie James Dio Simon Wright Scott Warren Craig Goldy Rudy Sarzo 
    Menu Ronnie Dio



From "Mob Rules" Black Sabbath (1981)


Words: Ronnie James Dio
Music: Dio/Butler/Iommi




Fig.1

E------------------------------------------------------------------|
B------------------------------------------------------------------|
G---P--5-----------5--7----------------7--5------------------------|
D--0-5-----7-7-7---5--7----------5-----7--5---7--------------------|
A----------0-0-0-------------0-5---0----------7--------------------|
E----------x-x-x---------------------------------------------------|



E------------------------------------------------------------------|
B------------------------------------------------------------------|
G---P--5-----------5--7------5-------------------------------------|
D--0-5-----7-7-7---5--7------5--7--7----7--------------------------|
A----------0-0-0----------------0--0----0--------------------------|
E----------x-x-x----------------x----------------------------------|


Fig.1:Text
Say you don't love me, you'll burn
You can refuse, but you'll lose, it's by me
Say you don't want me, you'll learn
Nothing you do will be renew, 'cause I'm through, ooh



Fig.2

E------------------------------------------------------------------|
B------------------------------------------------------------------|
G--7-7--------7-7--------------------------------------------------|
D--7-7--5-----7-7--4-----------------------------------------------|
A--5-5--5-----5-5--4-----------------------------------------------|
E-------3----------2-----------------------------------------------|



Fig.1

E------------------------------------------------------------------|
B------------------------------------------------------------------|
G---P--5-----------5--7----------------7--5------------------------|
D--0-5-----7-7-7---5--7----------5-----7--5---7--------------------|
A----------0-0-0-------------0-5---0----------7--------------------|
E----------x-x-x---------------------------------------------------|



E------------------------------------------------------------------|
B------------------------------------------------------------------|
G---P--5-----------5--7------5-------------------------------------|
D--0-5-----7-7-7---5--7------5--7--7----7--------------------------|
A----------0-0-0----------------0--0----0--------------------------|
E----------x-x-x----------------x----------------------------------|


Fig.1:Text
Call me a liar, you knew
You were a fool, but that's cool, it's all right
Call me the devil, it's true
Some can't accept but I crept inside you


Fig.3
E------------------------------------------------------------------|
B------------------------------------------------------------------|
G--5----2-------------5----2-------------5----2--------------------|
D--5----2-------------5----2-------------5----2--------------------|
A--3----0-------------3----0-------------3----0--------------------|
E------------------------------------------------------------------|

Fig.3: Text
So if a stranger calls you
Don't let him whisper his name
Cause it's voodoo, oh



Fig.1

E------------------------------------------------------------------|
B------------------------------------------------------------------|
G---P--5-----------5--7----------------7--5------------------------|
D--0-5-----7-7-7---5--7----------5-----7--5---7--------------------|
A----------0-0-0-------------0-5---0----------7--------------------|
E----------x-x-x---------------------------------------------------|



E------------------------------------------------------------------|
B------------------------------------------------------------------|
G---P--5-----------5--7------5-------------------------------------|
D--0-5-----7-7-7---5--7------5--7--7----7--------------------------|
A----------0-0-0----------------0--0----0--------------------------|
E----------x-x-x----------------x----------------------------------|


Fig.1:Text
Fade into shadow, you'll burn
Your fortune is free, I can see it's no good
Never look back, never turn
It's a question of time 'till your mine and you learn



Fig.3
E------------------------------------------------------------------|
B------------------------------------------------------------------|
G--5----2-------------5----2-------------5----2--------------------|
D--5----2-------------5----2-------------5----2--------------------|
A--3----0-------------3----0-------------3----0--------------------|
E------------------------------------------------------------------|

Fig.3: Text
So if a stranger sees you
Don't look in his eyes
'Cause he's voodoo, oh


Da Solo
E------------------------------------------------------------------|
B---8---8-8---8-8---8-8--------------------------------------------|
G---7---7-7---7-7---7-7---B-R------5(7)--4(6)--3(5)---P------------|
D------------------------5(6)5/----------------------5-3/5(7)-5(7)-|
A------------------------------------------------------------------|
E------------------------------------------------------------------|



E----------------5-8-5------H-P------------------------------------|
B----------------------8---5-8-5------H-P--------------------------|
G--------------------------------7---5-7-5------H-P-------H-P--5---|
D------------------------------------------7---5-7-5-----5-7-5-----|
A----R---5-4-3---------------------------------------7-------------|
E--(8)5------------------------------------------------------------|



E---H-P----8-5-8----P-H-----------B-R-P----------------------------|
B--5-8-5-----------8-5-8----P----6(8)6-5---------------------------|
G--------------------------7-5-------------------------------------|
D------------------------------------------------------------------|
A------------------------------------------------------------------|
E------------------------------------------------------------------|



E------------------------------------------------------------------|
B--8-7-6-5---5----P----5-------------------------------------------|
G----------8---8-7-5-7---5-----------------------------------------|
D--------------------------7-5-----7-5-7--P-S----------------------|
A------------------------------7---------6-5\3--4-5--S-------------|
E---------------------------------------------------5\3------------|



E------------------------------------------------------------------|
B----------------------------------------H-P--5-4-3---3-2----------|
G------2-------2-----2-4-2---2-----2--4-2-4-2-------5-----5-4-2----|
D--4-4-----4-4-----4-------4-----4-------------------------------4-|
A------------------------------------------------------------------|
E------------------------------------------------------------------|



E------------------P-----------------------------------------------|
B----R-B----5-8-7-6-5----5----R--------5---------------------------|
G--(9)7(8)-------------7----(8)7--5-7-----5---------8--------------|
D--------------------------------------------7---------------------|
A------------------------------------------------------------------|
E------------------------------------------------------------------|



E--5-8-5------H-P--------------------------------------------------|
B--------8---5-8-5------H-P----------------------------------------|
G------------------7---5-7-5-------5-------------------------------|
D----------------------------7--7----5-----------------------------|
A------------------------------------------------------------------|
E------------------------------------------------------------------|



E-----------S---8---P---10(12)10-8--------8----H-------------------|
B----R-P---8/10---10-8--------------10-10-----5-8----H-P-H-B-------|
G--(9)7-5-------------------------------------------5-7-5-7(9)-----|
D------------------------------------------------------------------|
A------------------------------------------------------------------|
E------------------------------------------------------------------|



E----------------------R----------5--------------------------------|
B----5--------------(10)8--5----------/\/\/\/\/\/\/\/\-------------|
G--7---5----------------------7------5-----------------------------|
D---------7----S---------------------------------------------------|
A-------------7\---------------------------------------------------|
E------------------------------------------------------------------|


Fig.2

E------------------------------------------------------------------|
B------------------------------------------------------------------|
G--7-7--------7-7--------------------------------------------------|
D--7-7--5-----7-7--4-----------------------------------------------|
A--5-5--5-----5-5--4-----------------------------------------------|
E-------3----------2-----------------------------------------------|



Fig.1

E------------------------------------------------------------------|
B------------------------------------------------------------------|
G---P--5-----------5--7----------------7--5------------------------|
D--0-5-----7-7-7---5--7----------5-----7--5---7--------------------|
A----------0-0-0-------------0-5---0----------7--------------------|
E----------x-x-x---------------------------------------------------|



E------------------------------------------------------------------|
B------------------------------------------------------------------|
G---P--5-----------5--7------5-------------------------------------|
D--0-5-----7-7-7---5--7------5--7--7----7--------------------------|
A----------0-0-0----------------0--0----0--------------------------|
E----------x-x-x----------------x----------------------------------|


Fig.1:Text
Bring me your children, they'll burn
Never look back, never turn
Cry me a river, you'll learn




If you Got Problems with the Transcription, Take a Look at the Legend

 



 Friends Ronnie Dio
 

Посвящается памяти легендарного Ronnie James Dio! 2008 © 2017