Ronnie James Dio Simon Wright Scott Warren Craig Goldy Rudy Sarzo 
    Menu Ronnie Dio



Wild One

Transcribed by Myself
 

 

From "Lock up the Wolves" Dio (1990)

Words: Ronnie James Dio
Music: Dio/Robertson

 
E||--------------------------|--------------------------|
B||--------------------------|--------------------------|
G||--------------------------|--------------------------|
D||--------------------------|--------------------------|
A||--------7-----5-----4--0--|-----5--------5-----------|
E||--0--0-----0-----0--------|--5-----5--3-----3--2--0--|


 
-------------------------|------------------------|-------------------------|
-------------------------|------------------------|-------------------------|
-------------------------|------------------------|-------------------------|
-------------------------|--------------5b--------|-------------------------|
-------7-----5-----4-----|--5-----7---------------|-------7-----5-----4-----|
----0-----0-----0-----0--|-----0-----0---------0--|----0-----0-----0-----0--|


 
--------------------------|------------------------|-----------------------|
--------------------------|------------------------|-----------------------|
--------------------------|----------------7----9--|------------12~--------|
--------------------------|----------------7----9--|------------12~--------|
-----5--------5-----------|----------------5----7--|-----------------------|
--5-----5--3-----3--2--0--|----0--0--0--0----------|------0--0----------0--|


 
-------------------------|--------------------------|-------------------------|
-------------------------|--------------------------|-------------------------|
-------------------------|--------------------------|-------------------------|
-------------------------|--------------------------|-------------------------|
-------7-----5-----4--0--|-----5--------5-----------|-------7-----5-----4-----|
----0-----0-----0--------|--5-----5--3-----3--2--0--|----0-----0-----0-----0--|


 
------------------------|-------------------------|--------------------------|
------------------------|-------------------------|--------------------------|
------------------------|-------------------------|-----------------------5--|
--------5-----7b--------|-------------------------|-----------------------5--|
--5---------------------|-------7-----5-----4--0--|-----5--------5--------3--|
-----0-----0---------0--|----0-----0-----0--------|--5-----5--3-----3--2-----|


 
------------------|-------------------|----------------------|
------------------|-------------------|----------------------|
------------------|--7----------------|--7------9------------|
------------------|--7----------------|--7------9------------|
------------------|--5----------------|--5------7------------|
------------------|-------------------|----------------0--0--|


 
--------------------------|--------------------------|
--------------------------|--------------------------|
--------------------------|--------------------------|
--------------------------|--------------------------|
--------------------------|--------------------------|
--0--0--0--0--0--0--0--0--|--0--0--0--0--0--0--0--0--|


 
--------------------------|--------------------------|
--------------------------|--------------------------|
--------------------------|--------------------------|
--------------------------|--------------------------|
--------------------------|--------------------------|
--0--0--0--0--0--0--0--0--|--0--0--0--0--0--0--0--0--|


 
--------------------------|-------------------------|--------------------------|
--------------------------|-------------------------|--------------------------|
--------------------------|-------------------------|--------------------------|
-----------------------9--|-------------------------|--------------------------|
-----------------------7--|-------7--0--5--0--4--0--|-----5--------5-----------|
--0--0--0--0--0--0--0-----|----0--------------------|--5-----5--3-----3--2--0--|


 
----------------------|--------------------------|--------------------------|
----------------------|--------------------------|--------------------------|
--7------9------------|--------------------------|--------------------------|
--7------9------------|--------------------------|--------------------------|
--5------7------------|--------------------------|--------------------------|
----------------0--0--|--0--0--0--0--0--0--0--0--|--0--0--0--0--0--0--0--0--|


 
--------------------------|--------------------------|
--------------------------|--------------------------|
--------------------------|--------------------------|
--------------------------|--------------------------|
--------------------------|--------------------------|
--0--0--0--0--0--0--0--0--|--0--0--0--0--0--0--0--0--|


 
--------------------------|--------------------------|------------------|
--------------------------|--------------------------|------------------|
--------------------------|-----------------------7--|------------------|
--------------------------|-----------------------7--|------------------|
--------------------------|-----------------------5--|------------------|
--0--0--0--0--0--0--0--0--|--0--0--0--0--0--0--0-----|------------------|


 
----------------------|--------------------------|--------------------------|
----------------------|--------------------------|--------------------------|
--7------9------------|--------------------------|--------------------------|
--7------9------------|--------------------------|--------------------------|
--5------7------------|--------------------------|--------------------------|
----------------0--0--|--0--0--0--0--0--0--0--0--|--0--0--0--0--0--0--0--0--|


 
--------------------------|----------------------|--------------------------|
--------------------------|----------------------|--------------------------|
--------------------------|--7------9------------|--------------------------|
--------------------------|--7------9------------|--------------------------|
--------------------------|--5------7------------|--------------------------|
--0--0--0--0--0--0--0--0--|----------------0--0--|--0--0--0--0--0--0--0--0--|


 
-------------------------|--------------------------|----------------------|
-------------------------|--------------------------|----------------------|
-------------------------|--------------------------|--7------9------------|
-------------------------|--------------------------|--7------9------------|
-------7-----5-----4--0--|-----5--------5-----------|--5------7------------|
----0-----0-----0--------|--5-----5--3-----3--2--0--|----------------0--0--|


 
--------------------------|--------------------------|
--------------------------|--------------------------|
--------------------------|--------------------------|
--------------------------|--------------------------|
--------------------------|--------------------------|
--0--0--0--0--0--0--0--0--|--0--0--0--0--0--0--0--0--|


 
--------------------------|----------------------|--------------------------|
--------------------------|----------------------|--------------------------|
--------------------------|--7------9------------|--------------------------|
--------------------------|--7------9------------|--------------------------|
--------------------------|--5------7------------|--------------------------|
--0--0--0--0--0--0--0--0--|----------------0--0--|--0--0--0--0--0--0--0--0--|


 
-------------------------|--------------------------|-----------------------|
-------------------------|--------------------------|-----------------------|
-------------------------|-----------------------2--|-------4----5~------2--|
-------------------------|-----------------------2--|-------4----5~------2--|
-------7-----5-----4--0--|-----5--------5--------0--|----0------------x--0--|
----0-----0-----0--------|--5-----5--3-----3--2-----|-----------------------|


 
-----------------------|-----------------------|-----------------------|
-----------------------|-----------------------|-----------------------|
-------4----5~------2--|-------4----5~------2--|-------4----5~---------|
-------4----5~------2--|-------3----5~------2--|-------3----5~---------|
----0------------x--0--|----0------------x--0--|----0------------x-----|
-----------------------|-----------------------|--------------------0--|


 
-------------------------|--------------------------|-------------------------|
-------------------------|--------------------------|-------------------------|
-------------------------|--------------------------|-------------------------|
-------------------------|--------------------------|-------------------------|
-------7-----5-----4--0--|-----5--------5-----------|-------7-----5-----4-----|
----0-----0-----0--------|--5-----5--3-----3--2--0--|----0-----0-----0-----0--|


 
------------------------|-----------------------|-----------------------|
------------------------|-----------------------|-----------------------|
---------------------2--|-------4----5~------2--|-------4----5~------2--|
--------------5~-----2--|-------3----5~------2--|-------4----5~------2--|
--5-----7--0---------0--|----0------------x--0--|----0------------x--0--|
-----0------------------|-----------------------|-----------------------|


 
-----------------------|---------------------|--------------------|
-----------------------|---------------------|--------------------|
-------4----5~------7--|------5----4--0------|--5------4----------|
-------4----5~------7--|------5----4--0------|--5------4----------|
----0------------0-----|---------------------|--3------2----------|
-----------------------|---------------------|--------------------|


 
-----------------------|--------------------|---------------------|
-----------------------|--------------------|---------------------|
------------7-------9--|--------------------|--5---------------2--|
------------7----x--9--|--------------------|--5--------0------2--|
------3--5--5----x--7--|--------------------|--3--------2------0--|
-----------------------|----------15\-------|-----------3---------|


 
-------------------------|--------------------------|-------------------------|
-------------------------|--------------------------|-------------------------|
-------------------------|--------------------------|-------------------------|
-------7-----5-----4--0--|-----5--------5-----------|-------------------------|
----0-----0-----0--------|--5-----5--3-----3--2-----|-------7-----5-----4--0--|
-------------------------|-----------------------0--|----0-----0-----0--------|


 
--------------------------|-------------------------|------------------------|
--------------------------|-------------------------|------------------------|
--------------------------|-------------------------|------------------------|
--------------------------|-------------------------|--------------5~--------|
-----5--------5-----------|-------7-----5-----4-----|--5-----7---------------|
--5-----5--3-----3--2--0--|----0-----0-----0-----0--|-----0-----0---------0--|


 
-------------------------|-------------------------|------------------|
-------------------------|-------------------------|------------------|
-------------------------|-------------------------|------------------|
-------------------------|-------------------------|------------------|
-------7-----5-----4--0--|-----5--------5----------|------------------|
----0-----0-----0--------|--5-----5--3-----3b---0\-|------------------|


 
--------------------|----------------------|--------------------------|
--------------------|----------------------|--------------------------|
--------------------|--7------9------------|--------------------------|
--------------------|--7------9------------|--------------------------|
--------------------|--5------7------------|--------------------------|
----------12\-------|----------------0--0--|--0--0--0--0--0--0--0--0--|


 
--------------------------|--------------------------|----------------------|
--------------------------|--------------------------|----------------------|
--------------------------|--------------------------|--7------9------------|
--------------------------|--------------------------|--7------9------------|
--------------------------|--------------------------|--5------7------------|
--0--0--0--0--0--0--0--0--|--0--0--0--0--0--0--0--0--|----------------0--0--|


 
--------------------------|-------------------------|--------------------------|
--------------------------|-------------------------|--------------------------|
--------------------------|-------------------------|--------------------------|
--------------------------|-------------------------|--------------------------|
--------------------------|-------7-----5-----4--0--|-----5--------5-----------|
--0--0--0--0--0--0--0--0--|----0-----0-----0--------|--5-----5--3-----3--2--0--|


 
----------------------|--------------------------|--------------------------|
----------------------|--------------------------|--------------------------|
--7------9------------|--------------------------|--------------------------|
--7------9------------|--------------------------|--------------------------|
--5------7------------|--------------------------|--------------------------|
----------------0--0--|--0--0--0--0--0--0--0--0--|--0--0--0--0--0--0--0--0--|


 
--------------------------|----------------------|--------------------------|
--------------------------|----------------------|--------------------------|
--------------------------|--7------9------------|--------------------------|
--------------------------|--7------9------------|--------------------------|
--------------------------|--5------7------------|--------------------------|
--0--0--0--0--0--0--0--0--|----------------0--0--|--0--0--0--0--0--0--0--0--|


 
-------------------------|--------------------------|-----------------------|
-------------------------|--------------------------|-----------------------|
-------------------------|-----------------------2--|-------4----5~------2--|
-------------------------|-----------------------2--|-------4----5~------2--|
-------7-----5-----4--0--|-----5--------5--------0--|----0------------x--0--|
----0-----0-----0--------|--5-----5--3-----3--2-----|-----------------------|


 
-----------------------|-----------------------|-----------------------|
-----------------------|-----------------------|-----------------------|
-------4----5~------2--|-------4----5~------2--|-------4----5~---------|
-------4----5~------2--|-------3----5~------2--|-------3----5~---------|
----0------------x--0--|----0------------x--0--|----0------------x-----|
-----------------------|-----------------------|--------------------0--|


 
-------------------------|--------------------------|-------------------------|
-------------------------|--------------------------|-------------------------|
-------------------------|--------------------------|-------------------------|
-------------------------|--------------------------|-------------------------|
-------7-----5-----4--0--|-----5--------5-----------|-------7-----5-----4-----|
----0-----0-----0--------|--5-----5--3-----3--2--0--|----0-----0-----0-----0--|


 
------------------------|-----------------------|-----------------------|
------------------------|-----------------------|-----------------------|
---------------------2--|-------4----5~------2--|-------4----5~------2--|
--------------5~-----2--|-------3----5~------2--|-------4----5~------2--|
--5-----7--0---------0--|----0------------x--0--|----0------------x--0--|
-----0------------------|-----------------------|-----------------------|


 
-----------------------|---------------------|--------------------|
-----------------------|---------------------|--------------------|
-------4----5~------7--|------5----4--0------|--------------------|
-------4----5~------7--|------5----4--0------|--5------4----------|
----0------------0-----|---------------------|--5------4----------|
-----------------------|---------------------|--3------2----------|


 
-----------------------|--------------------|---------------------|
-----------------------|--------------------|---------------------|
--------------------9--|--------------------|--5---------------2--|
------------7-------9--|--------------------|--5--------0------2--|
------3--5--7----x--7--|--------------------|--3--------2------0--|
------------5----x-----|----------15\-------|-----------3---------|


 
------------------|-------------------|--------------------------|
------------------|-------------------|-----8--------------------|
------------------|----------------7/-|--9-----5-----7-----5-----|
------------------|-------------------|-----------7-----7-----5/-|
------------------|-------------------|--------------------------|
------------------|-------------------|--------------------------|


 
--------------------------|------------------|-------------------|
--------------------------|------------------|-------------------|
-----5--------------------|------------------|----------------7r-|
--7-----5-----7-----5/-7--|------------------|-------------------|
-----------7-----7--------|------------------|-------------------|
--------------------------|------------------|-------------------|


 
--------------------|---------------------|------------------|
--------------------|----------------7----|------------------|
------7------7------|--7------7b-----7b---|------------------|
--------------------|---------------------|------------------|
--------------------|---------------------|------------------|
--------------------|---------------------|------------------|


 
------------------|----------------------|---------------------|
------------------|------7--7--7----7----|--7------------------|
------------------|------7-----7----7----|--7---------------5b-|
------------------|----------------------|-----------7\--------|
------------------|----------------------|-----------7\--------|
------------------|----------------------|---------------------|


 
----------------------|----------------------|-------------------------|
----------------------|-------------------5--|-------------------------|
-------------------5b-|------------2~-----5b-|-------------------------|
------7--5--7~--------|------7--5------------|------7--5--2------------|
----------------------|----------------------|--------------5--3-5--5--|
----------------------|----------------------|-------------------------|


 
------------------------|-------------------------|-------------------------|
---------------5--x--6/-|--8--8--8--8--8----x--6/-|--8--8--8--8--8\---x-----|
---------------5--x--7/-|--9--9--9--9--9----x--7/-|--9--9--------9\---x--5--|
------------------------|-------------------------|----------------------5--|
------3/---12-----------|-------------------------|-------------------------|
------------------------|-------------------------|-------------------------|


 
-----------------------|-----------------------|--------------------|
------------8----7--6--|-------------x--x------|--------------------|
-----------------------|----------x-----x--12r-|----------------14t-|
------7--5--7-------5--|-----------------------|--------------------|
-----------------------|-----------------------|--------------------|
-----------------------|-----------------------|--------------------|


 
------------------------------------|------------------------|
------------------------------------|------------------------|
--9-12-14t5-7-12/14--9-7-5----------|-------------------9~---|
---------------------------7--------|-------------5----------|
------------------------------5\-3--|----x--5/-7-----7-------|
------------------------------------|------------------------|


 
----------------------|--------------------------|--------------------------|
----------------------|--5--5--------7--5--------|--------------------------|
------9\-2/-24--------|--------7--5--7--5--------|-----5--------------------|
----------------------|--------------------7--5--|--7-----7--5--------------|
----------------------|--------------------------|--------------5-----3--5--|
----------------------|--------------------------|-----------------5--------|


 
--------------------------|---------------7----|
--------------------------|----------x----7b---|
--------------------------|----------x---------|
-----5--------5-----5--7~-|--------------------|
--7-----7--5-----7--------|--------------------|
--------------------------|--------------------|

I will continue the TAB as soon as possible - sorry.
But I think what is there is quite usable already...


 Friends Ronnie Dio
 

Посвящается памяти легендарного Ronnie James Dio! 2008 © 2016