Ronnie James Dio Simon Wright Scott Warren Craig Goldy Rudy Sarzo 
    Menu Ronnie Dio



Between Two Hearts 

From "Lock up the Wolves" Dio (1990)
Words: Ronnie James Dio
Music: Dio/Robertson
Fig 1: Acoustic Guitars
 
E||----------0---------------0-------|----------0-------------0-----|
B||------6-----6---6-----6-----6---6-|------6-----6---6-----5-------|
G||----7---7-----7-----5---5-----5---|----3---3-----3-----3---------|
D||--0---------------0---------------|--0---------------0-----------|
A||----------------------------------|------------------------------|
D||----------------------------------|------------------------------|


 
----------0---------------3p0-----|----------0-------------0-----|
------6-----6---6-----6-------6---|------6-----6---6-----5-------|
----7---7-----7-----5---5-------5-|----3---3-----3-----3---------|
------------------0---------------|--0---------------0-----------|
----------------------------------|------------------------------|
--0-------------------------------|------------------------------|

She never breaks ....

 
----------0---------------0-------|----------0-------------0-----|
------6-----6---6-----6-----6---6-|------6-----6---6-----5-------|
----7---7-----7-----5---5-----5---|----3---3-----3-----3---------|
------------------0---------------|--0---------------0-----------|
----------------------------------|------------------------------|
--0-------------------------------|------------------------------|


 
----------0---------------0-------|----------0-------------0-----|
------6-----6---6-----6-----6---6-|------6-----6---6-----5-------|
----7---7-----7-----5---5-----5---|----3---3-----3-----3---------|
------------------0---------------|--0---------------0-----------|
----------------------------------|------------------------------|
--0-------------------------------|------------------------------|


 
----------0---------------3p0-----|----------0---------------0-------|
------6-----6---6-----6-------6---|------6-----6---6-----5-----5---5-|
----7---7-----7-----5---5-------5-|----3---3-----3-----3---3-----3---|
--0---------------0---------------|--0---------------0---------------|
----------------------------------|----------------------------------|
----------------------------------|----------------------------------|


 
----------0---------------0-------|----------0-------------0-----|
------6-----6---6-----6-----6---6-|------6-----6---6-----5-------|
----7---7-----7-----5---5-----5---|----3---3-----3-----3---------|
--0---------------0---------------|--0---------------0-----------|
----------------------------------|------------------------------|
----------------------------------|------------------------------|

Fig 2: Distortion Guitar

 
----------------------------|--------------------------------|
----------------------------|--------------------------------|
----------------------------|--------------------------------|
----------------------------|--------------------------------|
-----------3-----------5~---|-----------3-------3/5-3--------|
--0--0-3-5----3--0--0-------|--0--0-3-5----3--0-------6-5-3~-|


 
------------------------------|---------------------------------|
------------------------------|---------------------------------|
------------------------------|---------------------------------|
------------------------------|---------------------------------|
-----------3-----------3-5-3--|-----------3-------3/5-3---------|
--0--0-3-5----3--0--0---------|--0--0-3-5----3--0-------6-5-3-5-|


Fig 3: Distortion Guitar

It´s between two Hearts ...

 
-------------------|--------------------|-------------------|
-------------------|--3------------3----|-------------------|
-------------------|--2------------2----|--0----------------|
--5----------------|--0------------0----|--0----------------|
--5----------------|--0------------0----|-------------------|
--5----------------|--0-----------------|--0----------------|


 
---------0---------0-----|--------------------|
--3---------3--------3---|--------------------|
--3------------3-------3-|--------------------|
-------------------------|--0-----------------|
-------------------------|--0--------x--------|
--0----------------------|--0-----------------|

Fig 1: Palm muted Guitar

 
----------0---------------0-------|----------0-------------0-------|
------6-----6---6-----6-----6---6-|------6-----6---6-----5---------|
----7---7-----7-----5---5-----5---|----3---3-----3-----3-----------|
--0---------------0---------------|--0---------------0---------x---|
----------------------------------|------------------------------x-|
----------------------------------|--------------------------------|

Fig 4: Distortion Guitar


We never have to ask ....


Fig 3:

----------------------------|--------------------------------|
----------------------------|--------------------------------|
----------------------------|--------------------------------|
----------------------------|--------------------------------|
-----------3-----------5~---|-----------3-------3/5-3--------|
--0--0-3-5----3--0--0-------|--0--0-3-5----3--0-------6-5-3~-|


 
------------------------------|---------------------------------|
------------------------------|---------------------------------|
------------------------------|---------------------------------|
------------------------------|---------------------------------|
-----------3-----------3-5-3--|-----------3-------3/5-3---------|
--0--0-3-5----3--0--0---------|--0--0-3-5----3--0-------6-5-3-5-|


 Friends Ronnie Dio
 

Посвящается памяти легендарного Ronnie James Dio! 2008 © 2016