Ronnie James Dio Simon Wright Scott Warren Craig Goldy Rudy Sarzo 
    Menu Ronnie Dio



Author/Artist: DIO
Title: We Rock
Album: The Last In Line- 1984
Transcribed by: David Lennstr




--|-------------------------------------------------|-------------------------
--|-------------------------------------------------|-------------------------
--|-9---------10--------7---------9---------5-----5-|-------------------------
--|-7---------7---------7---------7---------7-----5-|-------------------------
--|-0-0-0-0-0-0-0-0-0-0-0-0-0-0-0-0-0-0-0-0-0-0-0-0-|-------------------------
--|-------------------------------------------------|-------------------------
   intro/main riff:                                    3X                    

------------------------------------------------------------------------------
------------------------------------------------------------------------------
------------------------------------------------------------------------------
---10--10--10--12---10--9-----------------------------------------------------
---8---7---8---10---8---7-----------------------------------------------------
------------------------------------------------------------------------------
   riff 2:                                                                   

--|---------------------------|-----------------------------------------------
--|---------------------------|-----------------------------------------------
--|---------------------2-----|----------------------------------------5------
--|-------2-------5--4--2-----|----------------------------------------5------
--|-3--5--2-------3--2--0-----|--------0-0-0-0-0-0-0-0-0-0-0-0-0-0-0-0--------
--|-1--3--0-------------------|-----------------------------------------------
    riff 3 (before verse):       verse: galloping on open A-string           

------------------------------------------------------------------------------
------------------------------------------------------------------------------
------------------------------------------------------------------------------
------------------------------------------------------------------------------
------------------------------------------------------------------------------
------------------------------------------------------------------------------
chorus:  (G) sail on, sing a song, carry on...                              

------------------------------------------------------|---|---|---|-------|---
------------------------------------------------------|---|---|---|-------|---
------------------------------------------------------|-2-|---|-2-|-4-/-9-|---
----7-------------------------5-----------------------|-2-|-3-|-2-|-4-/-9-|---
----5-5-5-5--5-5-5--5-5-5-5---3-3-3-3--3-3-3--3-3-3-3-|-0-|-3-|-0-|-2-/-7-|---
------------------------------------------------------|---|-1-|---|-------|---
solo rhythm:                                           1   2   3   4        


You watch their faces
You'll see the traces
Of the things they want to be
But only we can see

They come for killing
They leave and still it seems
The cloud that's left behind
Oh, can penetrate your mind

But sail on, sing a song, carry on
Cause We Rock, We Rock, We Rock, We Rock

We pray to someone
But when it's said and done
It's really all the same
With just a different name

So many voices
All giving choices
If we listen they will say
Oh, we can find the way

But we'll sail on, sing a song, carry on
Cause We Rock, We Rock, We Rock, We Rock
We Rock, We Rock, We Rock, We Rock
We Rock!

We Rock
You watch their faces
You'll see the traces
Of the things they want to be
But only we can see

They come for killing
They leave and still it seems
The cloud that's left behind
Can penetrate your mind

Sail on, sing a song, carry on
Cause We Rock, We Rock, We Rock, We Rock
We Rock, We Rock, We Rock, We Rock

Ride out - stand and shout - carry on
Sail on - Sing your song - carry on

Cause We Rock, We Rock, see how We Rock
We Rock
That's rock
We Rock
We Rock


 Friends Ronnie Dio
 

Посвящается памяти легендарного Ronnie James Dio! 2008 © 2016